ISO-10303-21;
HEADER;
FILE_DESCRIPTION (( 'STEP AP203' ),
    '1' );
FILE_NAME ('Q-SHPQWP-18-355-M.STEP',
    '2020-12-22T09:47:30',
    ( '' ),
    ( '' ),
    'SwSTEP 2.0',
    'SolidWorks 2020',
    '' );
FILE_SCHEMA (( 'CONFIG_CONTROL_DESIGN' ));
ENDSEC;

DATA;
#1 = PERSON_AND_ORGANIZATION ( #111, #53 ) ;
#2 = CARTESIAN_POINT ( 'NONE',  ( -1.614212418857619014, 0.000000000000000000, 0.000000000000000000 ) ) ;
#3 = EDGE_CURVE ( 'NONE', #18, #12, #73, .T. ) ;
#4 = PERSON_AND_ORGANIZATION_ROLE ( 'creator' ) ;
#5 = DIRECTION ( 'NONE',  ( 0.000000000000000000, 0.000000000000000000, 1.000000000000000000 ) ) ;
#6 = DIRECTION ( 'NONE',  ( 0.000000000000000000, 0.000000000000000000, 1.000000000000000000 ) ) ;
#7 = DESIGN_CONTEXT ( 'detailed design', #75, 'design' ) ;
#8 = CALENDAR_DATE ( 2020, 22, 12 ) ;
#9 = CARTESIAN_POINT ( 'NONE',  ( 3.000000000000000000, 0.000000000000000000, 0.000000000000000000 ) ) ;
#10 = CARTESIAN_POINT ( 'NONE',  ( -1.614212418857619014, 0.000000000000000000, 0.000000000000000000 ) ) ;
#11 = AXIS2_PLACEMENT_3D ( 'NONE', #325, #299, #174 ) ;
#12 = VERTEX_POINT ( 'NONE', #333 ) ;
#13 = EDGE_CURVE ( 'NONE', #42, #321, #62, .T. ) ;
#14 = DIRECTION ( 'NONE',  ( 1.000000000000000000, 0.000000000000000000, 0.000000000000000000 ) ) ;
#15 = VERTEX_POINT ( 'NONE', #335 ) ;
#16 = APPROVAL_STATUS ( 'not_yet_approved' ) ;
#17 = CARTESIAN_POINT ( 'NONE',  ( -1.614212418857619014, 0.000000000000000000, 0.000000000000000000 ) ) ;
#18 = VERTEX_POINT ( 'NONE', #110 ) ;
#19 = AXIS2_PLACEMENT_3D ( 'NONE', #2, #315, #192 ) ;
#20 = PRODUCT_DEFINITION_FORMATION_WITH_SPECIFIED_SOURCE ( 'ANY', '', #331, .NOT_KNOWN. ) ;
#21 = APPROVAL_STATUS ( 'not_yet_approved' ) ;
#22 = COORDINATED_UNIVERSAL_TIME_OFFSET ( 8, 0, .AHEAD. ) ;
#23 = DIRECTION ( 'NONE',  ( 0.000000000000000000, 0.000000000000000000, -1.000000000000000000 ) ) ;
#24 = APPROVAL ( #211, 'UNSPECIFIED' ) ;
#25 = COORDINATED_UNIVERSAL_TIME_OFFSET ( 8, 0, .AHEAD. ) ;
#26 = DIRECTION ( 'NONE',  ( 0.000000000000000000, 0.000000000000000000, -1.000000000000000000 ) ) ;
#27 = CIRCLE ( 'NONE', #327, 9.000000000000000000 ) ;
#28 = EDGE_CURVE ( 'NONE', #302, #321, #274, .T. ) ;
#29 = DIRECTION ( 'NONE',  ( -1.000000000000000000, -0.000000000000000000, -0.000000000000000000 ) ) ;
#30 = CARTESIAN_POINT ( 'NONE',  ( -1.614212418857619014, 0.000000000000000000, 0.000000000000000000 ) ) ;
#31 = DIRECTION ( 'NONE',  ( 0.000000000000000000, 0.000000000000000000, -1.000000000000000000 ) ) ;
#32 = ADVANCED_FACE ( 'NONE', ( #107 ), #209, .F. ) ;
#33 = AXIS2_PLACEMENT_3D ( 'NONE', #114, #309, #189 ) ;
#34 = CC_DESIGN_APPROVAL ( #181, ( #148 ) ) ;
#35 = APPROVAL ( #16, 'UNSPECIFIED' ) ;
#36 = DIRECTION ( 'NONE',  ( 1.000000000000000000, 0.000000000000000000, 0.000000000000000000 ) ) ;
#37 = ORIENTED_EDGE ( 'NONE', *, *, #45, .F. ) ;
#38 = CYLINDRICAL_SURFACE ( 'NONE', #46, 9.000000000000000000 ) ;
#39 = LOCAL_TIME ( 17, 47, 30.00000000000000000, #219 ) ;
#40 = CARTESIAN_POINT ( 'NONE',  ( 3.000000000000000000, 1.555301434917138433E-15, -12.69999999999999929 ) ) ;
#41 = AXIS2_PLACEMENT_3D ( 'NONE', #17, #48, #74 ) ;
#42 = VERTEX_POINT ( 'NONE', #289 ) ;
#43 = CC_DESIGN_PERSON_AND_ORGANIZATION_ASSIGNMENT ( #106, #56, ( #20 ) ) ;
#44 = EDGE_LOOP ( 'NONE', ( #119, #230, #197, #203 ) ) ;
#45 = EDGE_CURVE ( 'NONE', #12, #18, #65, .T. ) ;
#46 = AXIS2_PLACEMENT_3D ( 'NONE', #146, #221, #319 ) ;
#47 = EDGE_LOOP ( 'NONE', ( #156, #275, #131, #37 ) ) ;
#48 = DIRECTION ( 'NONE',  ( -1.000000000000000000, -0.000000000000000000, -0.000000000000000000 ) ) ;
#49 = ORIENTED_EDGE ( 'NONE', *, *, #117, .T. ) ;
#50 = PERSON_AND_ORGANIZATION ( #111, #53 ) ;
#51 = EDGE_LOOP ( 'NONE', ( #278, #89 ) ) ;
#52 = EDGE_CURVE ( 'NONE', #83, #42, #142, .T. ) ;
#53 = ORGANIZATION ( 'UNSPECIFIED', 'UNSPECIFIED', '' ) ;
#54 = DIRECTION ( 'NONE',  ( 0.000000000000000000, 0.000000000000000000, 1.000000000000000000 ) ) ;
#55 = CC_DESIGN_PERSON_AND_ORGANIZATION_ASSIGNMENT ( #243, #4, ( #148 ) ) ;
#56 = PERSON_AND_ORGANIZATION_ROLE ( 'design_supplier' ) ;
#57 = CARTESIAN_POINT ( 'NONE',  ( -1.614212418857619014, 1.555301434917138433E-15, -12.69999999999999929 ) ) ;
#58 = ADVANCED_FACE ( 'NONE', ( #160 ), #115, .T. ) ;
#59 = APPROVAL_ROLE ( '' ) ;
#60 = APPROVAL_ROLE ( '' ) ;
#61 = CARTESIAN_POINT ( 'NONE',  ( -0.01350000000000049077, 1.102182119232617714E-15, -9.000000000000000000 ) ) ;
#62 = LINE ( 'NONE', #163, #186 ) ;
#63 = EDGE_CURVE ( 'NONE', #15, #260, #218, .T. ) ;
#64 = AXIS2_PLACEMENT_3D ( 'NONE', #313, #286, #26 ) ;
#65 = CIRCLE ( 'NONE', #102, 12.69999999999999929 ) ;
#66 = DIRECTION ( 'NONE',  ( -1.000000000000000000, 0.000000000000000000, -0.000000000000000000 ) ) ;
#67 = ORIENTED_EDGE ( 'NONE', *, *, #117, .F. ) ;
#68 = APPROVAL_ROLE ( '' ) ;
#69 = FACE_OUTER_BOUND ( 'NONE', #100, .T. ) ;
#70 = EDGE_CURVE ( 'NONE', #260, #176, #27, .T. ) ;
#71 = DIRECTION ( 'NONE',  ( -1.000000000000000000, -0.000000000000000000, -0.000000000000000000 ) ) ;
#72 = PLANE ( 'NONE',  #245 ) ;
#73 = CIRCLE ( 'NONE', #165, 12.69999999999999929 ) ;
#74 = DIRECTION ( 'NONE',  ( 0.000000000000000000, 0.000000000000000000, 1.000000000000000000 ) ) ;
#75 = APPLICATION_CONTEXT ( 'configuration controlled 3d designs of mechanical parts and assemblies' ) ;
#76 = EDGE_LOOP ( 'NONE', ( #49, #252, #280, #81 ) ) ;
#77 = DIRECTION ( 'NONE',  ( 0.000000000000000000, 0.000000000000000000, 1.000000000000000000 ) ) ;
#78 = AXIS2_PLACEMENT_3D ( 'NONE', #204, #330, #127 ) ;
#79 = AXIS2_PLACEMENT_3D ( 'NONE', #240, #263, #166 ) ;
#80 = PLANE ( 'NONE',  #239 ) ;
#81 = ORIENTED_EDGE ( 'NONE', *, *, #13, .F. ) ;
#82 = APPLICATION_PROTOCOL_DEFINITION ( 'international standard', 'config_control_design', 1994, #227 ) ;
#83 = VERTEX_POINT ( 'NONE', #61 ) ;
#84 = AXIS2_PLACEMENT_3D ( 'NONE', #298, #66, #267 ) ;
#85 = DIRECTION ( 'NONE',  ( -1.000000000000000000, -0.000000000000000000, -0.000000000000000000 ) ) ;
#86 = DIRECTION ( 'NONE',  ( 0.000000000000000000, 0.000000000000000000, 1.000000000000000000 ) ) ;
#87 = FACE_OUTER_BOUND ( 'NONE', #47, .T. ) ;
#88 = CC_DESIGN_DATE_AND_TIME_ASSIGNMENT ( #259, #108, ( #148 ) ) ;
#89 = ORIENTED_EDGE ( 'NONE', *, *, #45, .T. ) ;
#90 = CLOSED_SHELL ( 'NONE', ( #58, #297, #32, #168, #93, #214, #175, #234, #308, #277 ) ) ;
#91 = FACE_OUTER_BOUND ( 'NONE', #173, .T. ) ;
#92 = ORIENTED_EDGE ( 'NONE', *, *, #52, .T. ) ;
#93 = ADVANCED_FACE ( 'NONE', ( #283 ), #194, .F. ) ;
#94 = DIRECTION ( 'NONE',  ( -1.000000000000000000, -0.000000000000000000, -0.000000000000000000 ) ) ;
#95 = EDGE_LOOP ( 'NONE', ( #128, #147 ) ) ;
#96 = VECTOR ( 'NONE', #94, 1000.000000000000000 ) ;
#97 = CARTESIAN_POINT ( 'NONE',  ( -3.000000000000000000, 0.000000000000000000, 0.000000000000000000 ) ) ;
#98 = CC_DESIGN_DATE_AND_TIME_ASSIGNMENT ( #238, #164, ( #310 ) ) ;
#99 = CARTESIAN_POINT ( 'NONE',  ( -0.01350000000000054455, 9.000000000000000000, 0.000000000000000000 ) ) ;
#100 = EDGE_LOOP ( 'NONE', ( #145, #92, #300, #291 ) ) ;
#101 = FACE_OUTER_BOUND ( 'NONE', #125, .T. ) ;
#102 = AXIS2_PLACEMENT_3D ( 'NONE', #237, #241, #5 ) ;
#103 = CARTESIAN_POINT ( 'NONE',  ( -3.000000000000000000, 0.000000000000000000, 0.000000000000000000 ) ) ;
#104 = PLANE ( 'NONE',  #122 ) ;
#105 = ORIENTED_EDGE ( 'NONE', *, *, #52, .F. ) ;
#106 = PERSON_AND_ORGANIZATION ( #111, #53 ) ;
#107 = FACE_OUTER_BOUND ( 'NONE', #172, .T. ) ;
#108 = DATE_TIME_ROLE ( 'creation_date' ) ;
#109 = CC_DESIGN_APPROVAL ( #35, ( #310 ) ) ;
#110 = CARTESIAN_POINT ( 'NONE',  ( -3.000000000000000000, 0.000000000000000000, 12.69999999999999929 ) ) ;
#111 = PERSON ( 'UNSPECIFIED', 'UNSPECIFIED', 'UNSPECIFIED', ('UNSPECIFIED'), ('UNSPECIFIED'), ('UNSPECIFIED') ) ;
#112 = CIRCLE ( 'NONE', #311, 12.69999999999999929 ) ;
#113 = DATE_AND_TIME ( #279, #39 ) ;
#114 = CARTESIAN_POINT ( 'NONE',  ( -1.614212418857619014, 0.000000000000000000, 0.000000000000000000 ) ) ;
#115 = CYLINDRICAL_SURFACE ( 'NONE', #19, 12.69999999999999929 ) ;
#116 = CALENDAR_DATE ( 2020, 22, 12 ) ;
#117 = EDGE_CURVE ( 'NONE', #42, #83, #231, .T. ) ;
#118 = CARTESIAN_POINT ( 'NONE',  ( -1.614212418857619014, 0.000000000000000000, 9.000000000000000000 ) ) ;
#119 = ORIENTED_EDGE ( 'NONE', *, *, #154, .T. ) ;
#120 = DIRECTION ( 'NONE',  ( -1.000000000000000000, -0.000000000000000000, -0.000000000000000000 ) ) ;
#121 = ORIENTED_EDGE ( 'NONE', *, *, #201, .F. ) ;
#122 = AXIS2_PLACEMENT_3D ( 'NONE', #229, #251, #271 ) ;
#123 = LOCAL_TIME ( 17, 47, 30.00000000000000000, #332 ) ;
#124 = DIRECTION ( 'NONE',  ( 0.000000000000000000, 0.000000000000000000, 1.000000000000000000 ) ) ;
#125 = EDGE_LOOP ( 'NONE', ( #67, #105 ) ) ;
#126 = ORIENTED_EDGE ( 'NONE', *, *, #288, .T. ) ;
#127 = DIRECTION ( 'NONE',  ( 0.000000000000000000, 0.000000000000000000, 1.000000000000000000 ) ) ;
#128 = ORIENTED_EDGE ( 'NONE', *, *, #154, .F. ) ;
#129 = DATE_AND_TIME ( #8, #169 ) ;
#130 = FACE_OUTER_BOUND ( 'NONE', #76, .T. ) ;
#131 = ORIENTED_EDGE ( 'NONE', *, *, #190, .T. ) ;
#132 = DIRECTION ( 'NONE',  ( -1.000000000000000000, -0.000000000000000000, -0.000000000000000000 ) ) ;
#133 = VECTOR ( 'NONE', #228, 1000.000000000000000 ) ;
#134 = PERSON_AND_ORGANIZATION ( #111, #53 ) ;
#135 = CALENDAR_DATE ( 2020, 22, 12 ) ;
#136 = CARTESIAN_POINT ( 'NONE',  ( -1.614212418857619014, 1.102182119232617714E-15, -9.000000000000000000 ) ) ;
#137 = DIRECTION ( 'NONE',  ( -1.000000000000000000, -0.000000000000000000, -0.000000000000000000 ) ) ;
#138 = APPROVAL_DATE_TIME ( #261, #181 ) ;
#139 = DIRECTION ( 'NONE',  ( -1.000000000000000000, -0.000000000000000000, -0.000000000000000000 ) ) ;
#140 = DIRECTION ( 'NONE',  ( -1.000000000000000000, -0.000000000000000000, -0.000000000000000000 ) ) ;
#141 = UNCERTAINTY_MEASURE_WITH_UNIT (LENGTH_MEASURE( 1.000000000000000082E-05 ), #152, 'distance_accuracy_value', 'NONE');
#142 = CIRCLE ( 'NONE', #64, 9.000000000000000000 ) ;
#143 = APPROVAL_PERSON_ORGANIZATION ( #1, #181, #60 ) ;
#144 = CARTESIAN_POINT ( 'NONE',  ( 0.01350000000000108752, 0.000000000000000000, 9.000000000000000000 ) ) ;
#145 = ORIENTED_EDGE ( 'NONE', *, *, #257, .F. ) ;
#146 = CARTESIAN_POINT ( 'NONE',  ( -1.614212418857619014, 0.000000000000000000, 0.000000000000000000 ) ) ;
#147 = ORIENTED_EDGE ( 'NONE', *, *, #196, .F. ) ;
#148 = PRODUCT_DEFINITION ( 'UNKNOWN', '', #20, #7 ) ;
#149 = CARTESIAN_POINT ( 'NONE',  ( 2.999999999999999112, 0.000000000000000000, 9.000000000000000000 ) ) ;
#150 = EDGE_CURVE ( 'NONE', #199, #12, #285, .T. ) ;
#151 =( NAMED_UNIT ( * ) SI_UNIT ( $, .STERADIAN. ) SOLID_ANGLE_UNIT ( ) );
#152 =( LENGTH_UNIT ( ) NAMED_UNIT ( * ) SI_UNIT ( .MILLI., .METRE. ) );
#153 = ORIENTED_EDGE ( 'NONE', *, *, #70, .T. ) ;
#154 = EDGE_CURVE ( 'NONE', #222, #199, #212, .T. ) ;
#155 = CARTESIAN_POINT ( 'NONE',  ( -3.000000000000000000, 0.000000000000000000, 9.000000000000000000 ) ) ;
#156 = ORIENTED_EDGE ( 'NONE', *, *, #150, .F. ) ;
#157 = DIRECTION ( 'NONE',  ( -1.000000000000000000, -0.000000000000000000, -0.000000000000000000 ) ) ;
#158 = AXIS2_PLACEMENT_3D ( 'NONE', #233, #132, #77 ) ;
#159 = APPLICATION_PROTOCOL_DEFINITION ( 'international standard', 'config_control_design', 1994, #75 ) ;
#160 = FACE_OUTER_BOUND ( 'NONE', #44, .T. ) ;
#161 = CC_DESIGN_PERSON_AND_ORGANIZATION_ASSIGNMENT ( #216, #162, ( #310 ) ) ;
#162 = PERSON_AND_ORGANIZATION_ROLE ( 'classification_officer' ) ;
#163 = CARTESIAN_POINT ( 'NONE',  ( -1.614212418857619014, 0.000000000000000000, 9.000000000000000000 ) ) ;
#164 = DATE_TIME_ROLE ( 'classification_date' ) ;
#165 = AXIS2_PLACEMENT_3D ( 'NONE', #103, #157, #86 ) ;
#166 = DIRECTION ( 'NONE',  ( 1.000000000000000000, 0.000000000000000000, 0.000000000000000000 ) ) ;
#167 = COORDINATED_UNIVERSAL_TIME_OFFSET ( 8, 0, .AHEAD. ) ;
#168 = ADVANCED_FACE ( 'NONE', ( #91 ), #200, .F. ) ;
#169 = LOCAL_TIME ( 17, 47, 30.00000000000000000, #167 ) ;
#170 = VECTOR ( 'NONE', #140, 1000.000000000000000 ) ;
#171 = CARTESIAN_POINT ( 'NONE',  ( 0.01350000000000108752, 1.102182119232617714E-15, -9.000000000000000000 ) ) ;
#172 = EDGE_LOOP ( 'NONE', ( #318, #183, #153, #121 ) ) ;
#173 = EDGE_LOOP ( 'NONE', ( #269, #323 ) ) ;
#174 = DIRECTION ( 'NONE',  ( 0.000000000000000000, 0.000000000000000000, 1.000000000000000000 ) ) ;
#175 = ADVANCED_FACE ( 'NONE', ( #264, #268 ), #72, .F. ) ;
#176 = VERTEX_POINT ( 'NONE', #144 ) ;
#177 = ORIENTED_EDGE ( 'NONE', *, *, #320, .F. ) ;
#178 = CIRCLE ( 'NONE', #78, 9.000000000000000000 ) ;
#179 = DIRECTION ( 'NONE',  ( 0.000000000000000000, 0.000000000000000000, -1.000000000000000000 ) ) ;
#180 = ORIENTED_EDGE ( 'NONE', *, *, #201, .T. ) ;
#181 = APPROVAL ( #21, 'UNSPECIFIED' ) ;
#182 = CARTESIAN_POINT ( 'NONE',  ( -3.000000000000000000, 1.102182119232617714E-15, -9.000000000000000000 ) ) ;
#183 = ORIENTED_EDGE ( 'NONE', *, *, #63, .T. ) ;
#184 = PERSON_AND_ORGANIZATION ( #111, #53 ) ;
#185 = PERSON_AND_ORGANIZATION_ROLE ( 'design_owner' ) ;
#186 = VECTOR ( 'NONE', #137, 1000.000000000000000 ) ;
#187 = CARTESIAN_POINT ( 'NONE',  ( 0.01350000000000108752, 0.000000000000000000, 0.000000000000000000 ) ) ;
#188 = CARTESIAN_POINT ( 'NONE',  ( -0.01350000000000049077, 0.000000000000000000, 0.000000000000000000 ) ) ;
#189 = DIRECTION ( 'NONE',  ( 0.000000000000000000, 0.000000000000000000, 1.000000000000000000 ) ) ;
#190 = EDGE_CURVE ( 'NONE', #222, #18, #317, .T. ) ;
#191 = ADVANCED_BREP_SHAPE_REPRESENTATION ( 'Q-SHPQWP-18-355-M', ( #294, #79 ), #215 ) ;
#192 = DIRECTION ( 'NONE',  ( 0.000000000000000000, 0.000000000000000000, 1.000000000000000000 ) ) ;
#193 = CIRCLE ( 'NONE', #206, 9.000000000000000000 ) ;
#194 = CYLINDRICAL_SURFACE ( 'NONE', #265, 9.000000000000000000 ) ;
#195 = CARTESIAN_POINT ( 'NONE',  ( 3.000000000000000000, 0.000000000000000000, 12.69999999999999929 ) ) ;
#196 = EDGE_CURVE ( 'NONE', #199, #222, #112, .T. ) ;
#197 = ORIENTED_EDGE ( 'NONE', *, *, #3, .F. ) ;
#198 = CARTESIAN_POINT ( 'NONE',  ( 3.000000000000000000, 0.000000000000000000, 0.000000000000000000 ) ) ;
#199 = VERTEX_POINT ( 'NONE', #40 ) ;
#200 = PLANE ( 'NONE',  #84 ) ;
#201 = EDGE_CURVE ( 'NONE', #232, #176, #324, .T. ) ;
#202 = AXIS2_PLACEMENT_3D ( 'NONE', #198, #71, #6 ) ;
#203 = ORIENTED_EDGE ( 'NONE', *, *, #190, .F. ) ;
#204 = CARTESIAN_POINT ( 'NONE',  ( 2.999999999999999112, 0.000000000000000000, 0.000000000000000000 ) ) ;
#205 = EDGE_LOOP ( 'NONE', ( #126, #307 ) ) ;
#206 = AXIS2_PLACEMENT_3D ( 'NONE', #97, #272, #301 ) ;
#207 = FACE_BOUND ( 'NONE', #205, .T. ) ;
#208 = SECURITY_CLASSIFICATION_LEVEL ( 'unclassified' ) ;
#209 = CYLINDRICAL_SURFACE ( 'NONE', #33, 9.000000000000000000 ) ;
#210 = LOCAL_TIME ( 17, 47, 30.00000000000000000, #25 ) ;
#211 = APPROVAL_STATUS ( 'not_yet_approved' ) ;
#212 = CIRCLE ( 'NONE', #202, 12.69999999999999929 ) ;
#213 = DIRECTION ( 'NONE',  ( 0.000000000000000000, 0.000000000000000000, 1.000000000000000000 ) ) ;
#214 = ADVANCED_FACE ( 'NONE', ( #69 ), #38, .F. ) ;
#215 =( GEOMETRIC_REPRESENTATION_CONTEXT ( 3 ) GLOBAL_UNCERTAINTY_ASSIGNED_CONTEXT ( ( #141 ) ) GLOBAL_UNIT_ASSIGNED_CONTEXT ( ( #152, #306, #151 ) ) REPRESENTATION_CONTEXT ( 'NONE', 'WORKASPACE' ) );
#216 = PERSON_AND_ORGANIZATION ( #111, #53 ) ;
#217 = CARTESIAN_POINT ( 'NONE',  ( -3.000000000000000000, 0.000000000000000000, 0.000000000000000000 ) ) ;
#218 = LINE ( 'NONE', #136, #334 ) ;
#219 = COORDINATED_UNIVERSAL_TIME_OFFSET ( 8, 0, .AHEAD. ) ;
#220 = DIRECTION ( 'NONE',  ( -1.000000000000000000, -0.000000000000000000, -0.000000000000000000 ) ) ;
#221 = DIRECTION ( 'NONE',  ( -1.000000000000000000, -0.000000000000000000, -0.000000000000000000 ) ) ;
#222 = VERTEX_POINT ( 'NONE', #195 ) ;
#223 = CARTESIAN_POINT ( 'NONE',  ( -3.000000000000000000, 9.000000000000000000, 0.000000000000000000 ) ) ;
#224 = ORIENTED_EDGE ( 'NONE', *, *, #28, .F. ) ;
#225 = CIRCLE ( 'NONE', #158, 9.000000000000000000 ) ;
#226 = CARTESIAN_POINT ( 'NONE',  ( -1.614212418857619014, 1.102182119232617714E-15, -9.000000000000000000 ) ) ;
#227 = APPLICATION_CONTEXT ( 'configuration controlled 3d designs of mechanical parts and assemblies' ) ;
#228 = DIRECTION ( 'NONE',  ( -1.000000000000000000, -0.000000000000000000, -0.000000000000000000 ) ) ;
#229 = CARTESIAN_POINT ( 'NONE',  ( 2.999999999999999556, 12.69999999999999929, 0.000000000000000000 ) ) ;
#230 = ORIENTED_EDGE ( 'NONE', *, *, #150, .T. ) ;
#231 = CIRCLE ( 'NONE', #255, 9.000000000000000000 ) ;
#232 = VERTEX_POINT ( 'NONE', #149 ) ;
#233 = CARTESIAN_POINT ( 'NONE',  ( 0.01350000000000108752, 0.000000000000000000, 0.000000000000000000 ) ) ;
#234 = ADVANCED_FACE ( 'NONE', ( #87 ), #292, .T. ) ;
#235 = PERSON_AND_ORGANIZATION_ROLE ( 'creator' ) ;
#236 = MECHANICAL_CONTEXT ( 'NONE', #227, 'mechanical' ) ;
#237 = CARTESIAN_POINT ( 'NONE',  ( -3.000000000000000000, 0.000000000000000000, 0.000000000000000000 ) ) ;
#238 = DATE_AND_TIME ( #135, #210 ) ;
#239 = AXIS2_PLACEMENT_3D ( 'NONE', #99, #14, #179 ) ;
#240 = CARTESIAN_POINT ( 'NONE',  ( 0.000000000000000000, 0.000000000000000000, 0.000000000000000000 ) ) ;
#241 = DIRECTION ( 'NONE',  ( -1.000000000000000000, -0.000000000000000000, -0.000000000000000000 ) ) ;
#242 = CC_DESIGN_PERSON_AND_ORGANIZATION_ASSIGNMENT ( #184, #185, ( #331 ) ) ;
#243 = PERSON_AND_ORGANIZATION ( #111, #53 ) ;
#244 = LINE ( 'NONE', #226, #96 ) ;
#245 = AXIS2_PLACEMENT_3D ( 'NONE', #223, #36, #31 ) ;
#246 = ORIENTED_EDGE ( 'NONE', *, *, #288, .F. ) ;
#247 = SHAPE_DEFINITION_REPRESENTATION ( #276, #191 ) ;
#248 = CARTESIAN_POINT ( 'NONE',  ( -1.614212418857619014, 0.000000000000000000, 12.69999999999999929 ) ) ;
#249 = PRODUCT_RELATED_PRODUCT_CATEGORY ( 'detail', '', ( #331 ) ) ;
#250 = EDGE_LOOP ( 'NONE', ( #177, #224 ) ) ;
#251 = DIRECTION ( 'NONE',  ( -1.000000000000000000, 0.000000000000000000, -0.000000000000000000 ) ) ;
#252 = ORIENTED_EDGE ( 'NONE', *, *, #257, .T. ) ;
#253 = CC_DESIGN_APPROVAL ( #24, ( #20 ) ) ;
#254 = PERSON_AND_ORGANIZATION ( #111, #53 ) ;
#255 = AXIS2_PLACEMENT_3D ( 'NONE', #188, #262, #23 ) ;
#256 = ORIENTED_EDGE ( 'NONE', *, *, #63, .F. ) ;
#257 = EDGE_CURVE ( 'NONE', #83, #302, #244, .T. ) ;
#258 = VECTOR ( 'NONE', #290, 1000.000000000000000 ) ;
#259 = DATE_AND_TIME ( #116, #305 ) ;
#260 = VERTEX_POINT ( 'NONE', #171 ) ;
#261 = DATE_AND_TIME ( #284, #123 ) ;
#262 = DIRECTION ( 'NONE',  ( 1.000000000000000000, 0.000000000000000000, 0.000000000000000000 ) ) ;
#263 = DIRECTION ( 'NONE',  ( 0.000000000000000000, 0.000000000000000000, 1.000000000000000000 ) ) ;
#264 = FACE_BOUND ( 'NONE', #250, .T. ) ;
#265 = AXIS2_PLACEMENT_3D ( 'NONE', #30, #139, #54 ) ;
#266 = APPROVAL_PERSON_ORGANIZATION ( #134, #24, #59 ) ;
#267 = DIRECTION ( 'NONE',  ( -0.000000000000000000, 0.000000000000000000, 1.000000000000000000 ) ) ;
#268 = FACE_OUTER_BOUND ( 'NONE', #51, .T. ) ;
#269 = ORIENTED_EDGE ( 'NONE', *, *, #281, .F. ) ;
#270 = AXIS2_PLACEMENT_3D ( 'NONE', #217, #29, #213 ) ;
#271 = DIRECTION ( 'NONE',  ( -0.000000000000000000, 0.000000000000000000, 1.000000000000000000 ) ) ;
#272 = DIRECTION ( 'NONE',  ( -1.000000000000000000, -0.000000000000000000, -0.000000000000000000 ) ) ;
#273 = CC_DESIGN_PERSON_AND_ORGANIZATION_ASSIGNMENT ( #50, #235, ( #20 ) ) ;
#274 = CIRCLE ( 'NONE', #270, 9.000000000000000000 ) ;
#275 = ORIENTED_EDGE ( 'NONE', *, *, #196, .T. ) ;
#276 = PRODUCT_DEFINITION_SHAPE ( 'NONE', 'NONE',  #148 ) ;
#277 = ADVANCED_FACE ( 'NONE', ( #101 ), #80, .F. ) ;
#278 = ORIENTED_EDGE ( 'NONE', *, *, #3, .T. ) ;
#279 = CALENDAR_DATE ( 2020, 22, 12 ) ;
#280 = ORIENTED_EDGE ( 'NONE', *, *, #28, .T. ) ;
#281 = EDGE_CURVE ( 'NONE', #176, #260, #225, .T. ) ;
#282 = AXIS2_PLACEMENT_3D ( 'NONE', #10, #120, #124 ) ;
#283 = FACE_OUTER_BOUND ( 'NONE', #293, .T. ) ;
#284 = CALENDAR_DATE ( 2020, 22, 12 ) ;
#285 = LINE ( 'NONE', #57, #133 ) ;
#286 = DIRECTION ( 'NONE',  ( 1.000000000000000000, 0.000000000000000000, 0.000000000000000000 ) ) ;
#287 = DIRECTION ( 'NONE',  ( 0.000000000000000000, 0.000000000000000000, 1.000000000000000000 ) ) ;
#288 = EDGE_CURVE ( 'NONE', #232, #15, #178, .T. ) ;
#289 = CARTESIAN_POINT ( 'NONE',  ( -0.01350000000000049077, 0.000000000000000000, 9.000000000000000000 ) ) ;
#290 = DIRECTION ( 'NONE',  ( -1.000000000000000000, -0.000000000000000000, -0.000000000000000000 ) ) ;
#291 = ORIENTED_EDGE ( 'NONE', *, *, #320, .T. ) ;
#292 = CYLINDRICAL_SURFACE ( 'NONE', #282, 12.69999999999999929 ) ;
#293 = EDGE_LOOP ( 'NONE', ( #256, #246, #180, #329 ) ) ;
#294 = MANIFOLD_SOLID_BREP ( 'Ðý×', #90 ) ;
#295 = DIRECTION ( 'NONE',  ( 0.000000000000000000, 0.000000000000000000, 1.000000000000000000 ) ) ;
#296 = APPROVAL_DATE_TIME ( #129, #35 ) ;
#297 = ADVANCED_FACE ( 'NONE', ( #130 ), #328, .F. ) ;
#298 = CARTESIAN_POINT ( 'NONE',  ( 0.01350000000000054455, 9.000000000000000000, 0.000000000000000000 ) ) ;
#299 = DIRECTION ( 'NONE',  ( -1.000000000000000000, -0.000000000000000000, -0.000000000000000000 ) ) ;
#300 = ORIENTED_EDGE ( 'NONE', *, *, #13, .T. ) ;
#301 = DIRECTION ( 'NONE',  ( 0.000000000000000000, 0.000000000000000000, 1.000000000000000000 ) ) ;
#302 = VERTEX_POINT ( 'NONE', #182 ) ;
#303 = FACE_OUTER_BOUND ( 'NONE', #95, .T. ) ;
#304 = CIRCLE ( 'NONE', #11, 9.000000000000000000 ) ;
#305 = LOCAL_TIME ( 17, 47, 30.00000000000000000, #22 ) ;
#306 =( NAMED_UNIT ( * ) PLANE_ANGLE_UNIT ( ) SI_UNIT ( $, .RADIAN. ) );
#307 = ORIENTED_EDGE ( 'NONE', *, *, #316, .T. ) ;
#308 = ADVANCED_FACE ( 'NONE', ( #303, #207 ), #104, .F. ) ;
#309 = DIRECTION ( 'NONE',  ( -1.000000000000000000, -0.000000000000000000, -0.000000000000000000 ) ) ;
#310 = SECURITY_CLASSIFICATION ( '', '', #208 ) ;
#311 = AXIS2_PLACEMENT_3D ( 'NONE', #9, #220, #295 ) ;
#312 = APPROVAL_DATE_TIME ( #113, #24 ) ;
#313 = CARTESIAN_POINT ( 'NONE',  ( -0.01350000000000049077, 0.000000000000000000, 0.000000000000000000 ) ) ;
#314 = DIRECTION ( 'NONE',  ( -1.000000000000000000, -0.000000000000000000, -0.000000000000000000 ) ) ;
#315 = DIRECTION ( 'NONE',  ( -1.000000000000000000, -0.000000000000000000, -0.000000000000000000 ) ) ;
#316 = EDGE_CURVE ( 'NONE', #15, #232, #304, .T. ) ;
#317 = LINE ( 'NONE', #248, #258 ) ;
#318 = ORIENTED_EDGE ( 'NONE', *, *, #316, .F. ) ;
#319 = DIRECTION ( 'NONE',  ( 0.000000000000000000, 0.000000000000000000, 1.000000000000000000 ) ) ;
#320 = EDGE_CURVE ( 'NONE', #321, #302, #193, .T. ) ;
#321 = VERTEX_POINT ( 'NONE', #155 ) ;
#322 = APPROVAL_PERSON_ORGANIZATION ( #254, #35, #68 ) ;
#323 = ORIENTED_EDGE ( 'NONE', *, *, #70, .F. ) ;
#324 = LINE ( 'NONE', #118, #170 ) ;
#325 = CARTESIAN_POINT ( 'NONE',  ( 2.999999999999999112, 0.000000000000000000, 0.000000000000000000 ) ) ;
#326 = CC_DESIGN_SECURITY_CLASSIFICATION ( #310, ( #20 ) ) ;
#327 = AXIS2_PLACEMENT_3D ( 'NONE', #187, #85, #287 ) ;
#328 = CYLINDRICAL_SURFACE ( 'NONE', #41, 9.000000000000000000 ) ;
#329 = ORIENTED_EDGE ( 'NONE', *, *, #281, .T. ) ;
#330 = DIRECTION ( 'NONE',  ( -1.000000000000000000, -0.000000000000000000, -0.000000000000000000 ) ) ;
#331 = PRODUCT ( 'Q-SHPQWP-18-355-M', 'Q-SHPQWP-18-355-M', '', ( #236 ) ) ;
#332 = COORDINATED_UNIVERSAL_TIME_OFFSET ( 8, 0, .AHEAD. ) ;
#333 = CARTESIAN_POINT ( 'NONE',  ( -3.000000000000000000, 1.555301434917138433E-15, -12.69999999999999929 ) ) ;
#334 = VECTOR ( 'NONE', #314, 1000.000000000000000 ) ;
#335 = CARTESIAN_POINT ( 'NONE',  ( 2.999999999999999112, 1.102182119232617714E-15, -9.000000000000000000 ) ) ;
ENDSEC;
END-ISO-10303-21;
